Back In Black табы gtp

  Табы с видео [ac/dc back in black] (48,2 KiB, 75 hits)


Back In Black табы, gtp

скачано: 421


Back In Black 2 табы, gtp

скачано: 80


Back In Black 3 табы, gtp

скачано: 56


Back In Black 4 табы, gtp

скачано: 50


Back In Black 5 табы, gtp

скачано: 47


Back In Black 6 табы, gtp

скачано: 44


Back In Black Solo табы, gtp

скачано: 63

ACDC Back In Black табы

Песня из фильма железный человек стала пользоваться особой популярностью. ACDC Back In Black табы довольно простые у Вас получится :)

Основной риф
E|-----------------------------------------3-0-------------
B|-----------3-3-3-----------------------------3-0---------
G|-----------2-2-2------2-2---2---------------------2--0-
D|--2-------0-0-0------2-2---2---------------------------
A|---2-------------------0-0---0---------------------------
E|---0-----------------------------------------------------

--------------------------------------------------------
----------3-3-3-----------------------------------------
----------2-2-2-------2-2---2--------------------------
--2-------0-0-0------2-2---2--------------------------
--2-------------------0-0---0----2----2----2-----2------
--0-----------------------------------4----5----6----7---

ACDC Back In Black табы

Добавить комментарий

*elvis 
*guitar 
rock1 
*ded 
*drum 
:good: 
:yahoo: 
;-) 
B-) 
:whistle: 
:scratch: 
:bye: 
:heart: 
:rose: 
:-) 
:yes: