Пачка сигарет аккорды к песне группы кино, Цой, бой, соло, текст.

  Пачка сигарет табы (53,9 KiB, 767 hits)

Добрый день всем, кто решил научиться играть на гитаре пачка сигарет аккорды к Пачка сигарет аккорды группы кино (В.Цой)песне группы кино Вы сможете найти ниже, так же узнаете бой к этой песне, соло и конечно текст. Пачка сигарет gtp файл это табы Вы так же найдёте ниже.

Знаю, что многие до сих пор слушают группу кино и многие хотят научиться играть её на гитаре, как правило, такие уроки гитары для начинающих особенно интересны и полезны, но при этом лучше будет, если Вы уже имеете хоть какой, то опыт игры на этом инструменте.

Если же Вы совсем новичок, то гитарная школа live-guitar.ru, поможет Вам быстро освоить интересующие Вас песни. На этом вступление заканчивается, переходим к разбору.

Пачка сигарет аккорды.

Пачка сигарет аккорды это песни следующие.Пачка сигарет аккорды табыПачка сигарет аккорды - к песни

Ем — ми

Ам — ля

С — до

D — ре

Как играть вступление табы.

E||-----------------------|--7--5-----------3--------|
B||-----------------------|--------5-----------5-----|
G||----------------4s--5--|-----------5~----------5--|
D||-----------------------|--------------------------|
A||-----------------------|--------------------------|
E||-----------------------|--------------------------|

--------5--------------7--|--5----------3------------|
--3~-------7--------------|-----5----------5---------|
--------------5--4--4-----|--------5----------4--5~--|
--------------------------|--------------------------|
--------------------------|--------------------------|
--------------------------|--------------------------|

-----5--------------------|--7--5-----------3--------|
--------7-----------------|--------5-----------5-----|
--L--------5--4----4s--5--|-----------5~----------5--|
--------------------------|--------------------------|
--------------------------|--------------------------|
--------------------------|--------------------------|

-------5--------------7--|--5---------------------------|
--3-------7--------------|-----5------------<>7---------|
-------------5--4--4-----|--------5----<>5--------------|
-------------------------|-----------------------<>5----|
-------------------------|------------------------------|
-------------------------|------------------------------|

------------------------------------|
-----------<>12-------<>7-----------|
-----<>12--------<>5-------<>7------|
--L---------------------------------|
------------------------------------|
------------------------------------|

Em         Am          C          D    Em

Я сижу и смотрю в чужое небо из чужого окна

Am      C     D        Em

И не вижу ни одной знакомой звезды.

Am          C       D         Em

Я ходил по всем дорогам и туда, и сюда,

Am          C         D        Em

Обернулся — и не смог разглядеть следы.

Em      Am           C    D    Em

Но если есть в кармане пачка сигарет,

Am             C           D        Em

Значит все не так уж плохо на сегодняшний день.

Am          C          D        Em

И билет на самолет с серебристым крылом,

Am         C      D      Em

Что, взлетая, оставляет земле лишь тень.

И никто не хотел быть виноватым без вина,

И никто не хотел руками жар загребать,

А без музыки на миру смерть не красна,

А без музыки не хочется пропадать.

Но если есть в кармане пачка сигарет,

Значит все не так уж плохо на сегодняшний день.

И билет на самолет с серебристым крылом,

Что, взлетая, оставляет земле лишь тень.

 

Аккорды  к песне пачка сигарет простые.

Вам не нужно зажимать баре, бой при этом, то же довольно простой, рекомендую Вам слушать оригинал этой песни и стараться повторить.  Для того, что бы сыграть соло Вам потребуется скачать gtp и слушать, что у Вас должно в итоге получиться.

При этом Вы должны понимать, как читать табулатуры и обладать чувством ритма для этого Вам понадобится скачать метроном, который присутствует в gtp ( guitar pro 5 ).

  Пачка сигарет табы (53,9 KiB, 767 hits)

Ниже соло в виде картинки для тех кто, чувствует что может сыграть его.

Комментарии запрещены.