В пещере горного короля табы

  В пещере горного короля (2,7 KiB, 736 hits)

E||-------------------------------------------------------
B||-------------------------------------------------------
G||------------------------------------------------------
D||-------------2--4-----4------3-----3----2-----2----
A||---2--4--5--------5------------4------------3------
E||------------------------------------------------------
----------------------------------------------------------
----------------------------------------------------------
-----------------------------4-----2---------------2------
-------------2----4-----4--------------4-----4------------
--2--4--5------------5--------------------5---------------
----------------------------------------------------------

В пещере горного короля табы

Доброго дня друзья. Продолжаем рубрику рок урок и сегодня Вас ждёт ещё один довольно простой но эффектный риф, который Вы сможете легко освоить.

Эдвард Грик - в пещере горного короля / Hall Of The Mountain King

На страницы выше Вы найдёте табы и видео для этой мелодии.

Рекомендую Вам для начала:

  • заучить эту тему;
  • затем начинать играть под метроном — ритм 90 — 100 ударов в минуту;
  • играйте так что бы каждая нота совпадала с кликом метронома;

Добавить комментарий

*elvis 
*guitar 
rock1 
*ded 
*drum 
:good: 
:yahoo: 
;-) 
B-) 
:whistle: 
:scratch: 
:bye: 
:heart: 
:rose: 
:-) 
:yes: