Big Gun табы

Big Gun табы, gtp

скачано: 97

Big Gun 2 табы, gtp

скачано: 61

Big Gun 3 табы, gtp

скачано: 51

acdc Big Gun табы gtp

Вы могли слышать эту песню в терминаторе :) acdc Big Gun табы лучший подбор только для Вас

E||------------3b--L----0-----|-----0-----0--L----------|
B||------------------------3--|-------------------3S----|
G||*--1-----------------------|-------------------------|
D||*--2--2--------------------|-------------------------|
A||---2--2--------------------|-------------------------|
E||---0--0--------------------|-------------------------|

-----------3b--L----0--x--|--0-----------------------|
--------------------------|-------3S----x------------|
--1--1--------------------|-------------------------*|
--2--2--------------------|----------------0--------*|
--2--2--------------------|-------------------0------|
--0--0--------------------|-----------------------3--|

---------------------------|--------------------------|
---------------------------|--------------------------|
*--------------------------|--------------------------|
*--------------------------|--------------------------|
---------5--------4--------|--2--------4--------2-----|
---0--7-----0--5-----0--3--|-----0--5-----0--3-----3--|

  E  E  E  E  E  E  E  E     E  E  E  E  E  E   E  E     
--------------------------|----------------------------|
--------------------------|----------------------------|
--------------------------|-----------------0---2-----*|
--------------------------|-----------------0---2-----*|
--------5--------4--------|--2--------4---------0------|
--0--7-----0--5-----0--3--|-----0--5-----0--3b-----3---|

Добавить комментарий

*elvis 
*guitar 
rock1 
*ded 
*drum 
:good: 
:yahoo: 
;-) 
B-) 
:whistle: 
:scratch: 
:bye: 
:heart: 
:rose: 
:-) 
:yes: