Играем happy birthday to you


С днём рожденья тебя (happy birthday to you). 01.06.11


  happy birthday to you на гитаре табы (gtp) (1,9 KiB, 1 243 hits)

happy-birthday-to-you-tabs

смотрите так же

я на солнышке лежу ноты, текст, аккорды, видео.

Маленькой елочке холодно зимой (ноты+табы+видео)В лесу родилась елочка ноты


И так как читать табулатуры Вы уже изучили и теперь первая мелодия.

happy birthday to you

  happy birthday to you табы gtp (6,6 KiB, 1 023 hits)

E||--------------------------|--------------------3--0--|
B||------------1--0--------|--------3--1--------------|
G||0--0--2--0--------0--0|--2--0--------0--0--------|
D||--------------------------|--------------------------|
A||--------------------------|--------------------------|
E||--------------------------|--------------------------|

-----------1--1--0------------|
--1--0--------------1--3---1--|
--------2---------------------|
------------------------------|
------------------------------|
------------------------------|

Для начала нужно выучить её наизусть и играть ровно под метроном !

Метроном есть в программе guitar pro 5.2 скачать которую можно в этом разделе СКАЧАТЬ .

Посмотрите как это должно звучать.

Скачайте табулатуру в формате Guitar Pro (Gtp).

  happy birthday to you табы gtp (6,6 KiB, 1 023 hits)

Этот урок не полный, продолжение следует…

7 комментариев: happy birthday to you

  1. Олег и Митя =) говорит:

    happy birthday to you — простая песенка для начинающих, получилось сыграть её с первого раза rock1 побольше таких :good:

  2. admin говорит:

    рад, что Вам понравилось, выложу ещё одно видео, со 2-ми табами, они попроще

  3. ромашка говорит:

    *elvis *guitar *guitar *drum

  4. admin говорит:

    )))))

  5. admin говорит:

    [Колосок] Так тут ноты, табы, видео и gtp файл. А аккорды можно конечно добавлю, но вообще это просто мелодия, аккорды они для акомпонимента

  6. Я у Мамы Гитарист говорит:

    :yahoo: :yahoo: :yahoo: Только начинаю играть на гитаре и у меня получается!Юхуу *elvis *guitar rock1 *ded :good:

  7. admin говорит:

    Я у Мамы Гитарист — молочина так держать )))

Добавить комментарий

*elvis 
*guitar 
rock1 
*ded 
*drum 
:good: 
:yahoo: 
;-) 
B-) 
:whistle: 
:scratch: 
:bye: 
:heart: 
:rose: 
:-) 
:yes: