Пираты карибского моря табы, gtp, видеоурок, аккорды, тема на гитаре, ноты.

  Пираты карибского моря gtp, табы (14,1 KiB, 18 430 hits)


  piraty-karibskogo-morya-hes-a-pirate (11,1 KiB, 8 691 hits)


  Пираты Карибского Моря табы (156,6 KiB, 15 913 hits)

Есть вопросы ? Задавайте в комментариях (внизу страницы ^_^)

Добрый день сегодня научимся играть на гитаре мелодию из Пираты карибского моря табыфильма пираты карибского моря. Для тех кто, только начинает свой путь гитариста пригодится статья про то, как читать табулатуры, если вы это уже знаете, то для Вас пираты карибского моря табы, gtp, видеоурок, аккорды, тема на гитаре, музыка, ноты и многое другое :)

Как всегда предложу на выбор две партии для гитары, что поможет Вам найти более подходящую для Вас. Если вдруг у Вас не получается играть эту мелодию, то приглашаем в гитарную школу live-guitar.ru, поситите 5-7 уроков гитары, Вам правильно «поставят» руки и … ой, что то увлёкся переходим от слов к делу т.е к табам (gtp).

Последнее отступление, скачайте gtp 5 и будет Вам счастье.

Пираты карибского моря табы, gtp для гитары.

Пираты карибского моря табы для гитарыДля самых нетерпеливых сразу выкладываю файл с табами в формате gtp.

Для тех, кто нуждается в объяснении, напишу парочку советов. Можно играть как руками, так и медиатором, как Вам удобнее.

- разучивайте произведение маленькими частями (по 1-2 такта);
- играйте медленно;
- запишите себя на аудио;

Пираты карибского моря ноты и видеоурок.

Много всяких мелочей можно рассказать про, то как играть на гитаре пиратов, но лучше посмотрите это видео (нашёл на youtube видео не моё).

Так же рекомендую начинающим, если у Вас долгое время не получается освоить эту мелодию, то сыграйте, что то попроще, наберитесь опыта, а затем вернитесь к это теме.

E--------------------------------------|
B--------------------------------------|
G---5-7-7-7-9-10-10-10-12-9-9-7-5-7----| - играть 2 раза
D-7---------------------------------7--|
A--------------------------------------|
E--------------------------------------|

E-----------------------------------------------------------------|
B-----------6-8-8-8-10-11-11-10-8-10-----------6-8-10-6-5-5-6-5---|
G---5-7-7-7--------------------------7---7-7-7--------------------|
D-7---------------------------------------------------------------|
A-----------------------------------------------------------------|
E-----------------------------------------------------------------|

E------------------------------------------------------------------|
B--10-10-10-11-10-8-8-8-8-10-10-10-10-11-10-8-6-5-3----------------|
G------------------------------------------------------------------|
D------------------------------------------------------------------|
A------------------------------------------------------------------|
E------------------------------------------------------------------|

E--------------------------------------------------------|
B--3-5-6-8-10-8-6-5-6-8-10-8-6-8-10-8-6-5-6-5-3-1-3------|
G--------------------------------------------------------|
D--------------------------------------------------------|
A--------------------------------------------------------|
E--------------------------------------------------------|

E-----------------------------------1-5-6-3-----------|
B---3-5-6-5-6-8-6-8-10-8-6-3--3-3-3---------6-5-3-1-3-|
G-----------------------------------------------------|
D-----------------------------------------------------|
A-----------------------------------------------------|
E-----------------------------------------------------|

E------------------------------------------------------------|
B--10-11-10-10-10-10-8-8-6-5-6-5-3-1-3-----------------------|
G------------------------------------------------------------|
D------------------------------------------------------------|
A------------------------------------------------------------|
E------------------------------------------------------------|

28 комментариев: Пираты карибского моря табы, gtp, видеоурок, аккорды, тема на гитаре, ноты.

  1. Artur говорит:

    где найти 2 серию?

  2. admin говорит:

    2 серия скоро будет =)

  3. Никита говорит:

    когда будет просто здесь лучше всего снимают?

  4. admin говорит:

    Никита
    Продолжение постараюсь на неделе выложить.

  5. Саня говорит:

    а можешь на акустической показать звуки совсем разные путаюсь малость

  6. Саня говорит:

    заранее спасибо

  7. Никита говорит:

    Когда 2 часть?

  8. Ксения говорит:

    Очень быстро, не могу понять по каким струнам пальцы перебегают. А так интересно, спасибо)

  9. admin говорит:

    Пожалуйста Ксения =)
    Что бы понять по какие струны играть:
    - скачайте табулатуру (там всё написано);
    - прочитайте статью Как читать табулатуру
    Если после этого останутся вопросы, задавайте отвечу.

  10. Марат говорит:

    Что за гитара?Почем брал?))Ответ желательно в почту)

  11. admin говорит:

    Марат. Это гитара GIBSON LES PAUL STUDIO …

  12. Сергей говорит:

    Админ, напиши мне сюда табы 3 и 4 части. Табы у меня не открываются

  13. admin говорит:

    Почему табы не открываются???? Вот ссылка http://live-guitar.ru/download/9/ там pdf файл он должен открыться на любом компе, если не откроется пиши помогу.

  14. иван говорит:

    а где ноты? нажимаю на ссылку и выскакивает на весь экран такая-вот фигня: (цензура :scratch: ) (и т.д и т.д)
    Помогите.

  15. admin говорит:

    Иван, отправил на почту B-)

  16. антон говорит:

    а остальное то где,давай уж до конца учи нас

  17. admin говорит:

    [антон] Остальное будет как приеду в Москву т.е в августе

  18. Sergey говорит:

    *ded *ded *ded *ded rock1 rock1 *guitar *elvis *elvis :yes: :yes: :rose: B-) B-) *elvis *drum :good: :yahoo: B-) ;-) :whistle: :scratch: :scratch: :heart: :rose: :-) :yes: :yes: :yes: :yes: :yes: :yes: :yes: :yes: :yes: :yes: :yes: :yes: :yes: :yes: :yes: :yes: :-) :-) :-) :-) :-) :-) :-) :-) :-) :-) :-) :-) :-) :-) :-) :-) :rose: :rose: :rose: :rose: :rose: :rose: :rose: :rose: :rose: :rose: :rose: :rose: :bye: :bye: :bye: :bye: :bye: :bye: :bye: :scratch: :scratch: :scratch: :scratch: :whistle: :whistle: B-) B-) ;-) :yahoo: :good: :good: *drum *ded *ded *ded *ded *ded *ded *ded *ded *ded *ded *ded *ded *ded *ded *ded *ded *ded *ded *ded *ded *ded *ded *ded *ded *ded *ded *ded *ded *ded *ded *drum *drum *drum *drum *drum *drum *drum *drum *drum *drum *drum

  19. Юлия говорит:

    А продолжение будет? Все-таки вы показали половину, стоило бы и доучить нас. rock1

  20. admin говорит:

    Юлия может как нить найдутся силы и желание, просто эту мелодию раз 100 рассказывал как играть своим ученикам надоела она мне порядочно ))) вот как забуду про неё немного так и запишу продолжение :)

  21. DaN4iK говорит:

    а где ноты? Мне ноты нужны

  22. admin говорит:

    [DaN4iK] в файле GTP есть ноты

  23. Мия говорит:

    А где табы/аккорды из 1 видео?! :scratch:

  24. admin говорит:

    [Мия] табы по ссылке http://live-guitar.ru/download/130/ но что бы их открыть Вам понадобится скачать программу guitar pro 5

  25. Mike говорит:

    Ребята я из видео выделил табы, кому нужно
    _1 ЧАСТЬ:
    A————-0—1-1—1-3—0-0—————————————————————————————
    B-1—3—3————————3—1-1—3—————————————————————————
    C-2———————————————————————————————————————
    _2 ЧАСТЬ:
    A—————1—3-3—3—5—6-6—5—3—5——0—1-1—3-5———1—0-0—1—0—————————-
    B—1—3-3—3————————————3—3—————-3—3————3——————————
    C-2———————————————————————————————————————

  26. Moore Moon говорит:

    Все четко и понятно, спасибо большое)) Быстро выучила *guitar rock1 :heart:

  27. Богдан говорит:

    Спасибо! А есть такие же табы, но где басы прописаны?

  28. admin говорит:

    [Богдан] Вообще есть, но тут вариант для начинающих, а для них играть с басами это будет трудновато.

Добавить комментарий

*elvis 
*guitar 
rock1 
*ded 
*drum 
:good: 
:yahoo: 
;-) 
B-) 
:whistle: 
:scratch: 
:bye: 
:heart: 
:rose: 
:-) 
:yes: