Люмен Cид и нэнси — аккорды, gtp, табы, [Lumen sid and nancy]

Cид и нэнси табы

  Lumen sid and nancy (28,3 KiB, 168 hits)


  lumen-sid-i-nensi (28,3 KiB, 744 hits)


Сегодня разберём песню группы люмен Lumen аккорды сид и нэнси, вступление табы + gtp. Знаю, что многим нравится песня гореть, но её разберем чуть позже.

И так вступление к песни сид и нэнси играется довольно просто, если правильно подобрать аппликатуру для левой руки, а не играть все табы подряд, что находите в интернете.

И так начинаем.

Сид и нэнси люмен вступление табы.

Для начала хорошо бы слушать, как это звучит в оригинале.
Что? Уже 1000 раз слышал, ещё послушай внимательно, а теперь посмотри и скачай gtp файл.

  lumen-sid-i-nensi (28,3 KiB, 744 hits)

Сид и нэнси люмен вступление табы

Если хоть не много понимаешь как строятся ноты на грифе то уже знаешь какие аккорды обыгрываются, если не знаешь, подскажу.

Аккорды сид и нэнси люмен lumen.

Аккорды сид и нэнси люмен lumen - правильные аккорды

Em | D | C | D# – вот и всё это весь набор!

   
E||----------------------------|--------------------------|
B||----------------------------|--------------------------|
G||--------4-----5--4--2--4--|--------4-----5--4--2--4--|
D||--2--2-----2--------------|--0--0-----0--------------|
A||----------------------------|--------------------------|
E||----------------------------|--------------------------|

----------------------------|--------------------------|
----------------------------|--------------------------|
-------4-----5--4--2--4--|--------4--2--------4--2--|
----------------------------|--0--0--------1--1--------|
--3--3-----3--------------|--------------------------|
----------------------------|--------------------------|

Em           D      C
Вены дорог, дороги вен
             D                    Em
Машинкой размажет по кирпичности стен
Em      D                   C
Обломки империй, элементы систем
                D                Em
И тот кто был всем, тот станет никем.
Но мы с тобой будем вместе
Как Sid и Nancy, Sid и Nancy.
И ни за что не доживём до пенсии
Как Sid и Nancy, Sid и...

Тут включаете дистершн и поехали
 Em | D | C | D D#  - 4 раза проигрыш

Дорожки пыли, пыль дорожек,
Белый - смелый, хитрый - тоже,
Покатились глаза по бледной коже,
У меня есть ножик, где-то ножик.

И мы с тобою станем вместе
Как Сид и Нэнси, Сид и Нэнси.
И ни за что не доживем до пенсии,
Мы Сид и Нэнси, Сид и...

Героиновый рай - и они там вдвоем,
И мы, наверное, туда попадем
По дорогам вен, по дорожкам пыли,
Ведь мы так любили, мы были...

Мы были с тобой все время вместе
Как Сид и Нэнси, Сид и Нэнси.
И ни за что бы не дожили до пенсии,
Как Сид и Нэнси, Сид и...

Советую слушать сид и нэнси люмен lumen

Если, Вам непонятно как играть эту песню на гитаре приглашаем Вас на уроки гитары, в нашу школу и Вы научитесь играть не только эту песню, но и многие другие

Удачи!


Lumen - люмен
Cид и нэнси


Один комментарий: Cид и нэнси аккорды люмен gtp табы

  1. Julius_Cohn говорит:

    Йо йо rock1 как круто! А можно табы соло, please :heart: *guitar

Добавить комментарий

*elvis 
*guitar 
rock1 
*ded 
*drum 
:good: 
:yahoo: 
;-) 
B-) 
:whistle: 
:scratch: 
:bye: 
:heart: 
:rose: 
:-) 
:yes: